  0
SECTION
  2
HEADER
  9
$ACADVER
  1
AC1015
  9
$ACADMAINTVER
 70
     6
  9
$DWGCODEPAGE
  3
ANSI_1250
  9
$INSBASE
 10
0.0
 20
0.0
 30
0.0
  9
$EXTMIN
 10
-243.1754385965
 20
-85.3657277107
 30
0.0
  9
$EXTMAX
 10
254.8245614035
 20
89.5467836257
 30
0.0
  9
$LIMMIN
 10
0.0
 20
0.0
  9
$LIMMAX
 10
420.0
 20
297.0
  9
$ORTHOMODE
 70
     0
  9
$REGENMODE
 70
     1
  9
$FILLMODE
 70
     1
  9
$QTEXTMODE
 70
     0
  9
$MIRRTEXT
 70
     1
  9
$LTSCALE
 40
1.0
  9
$ATTMODE
 70
     1
  9
$TEXTSIZE
 40
3.5
  9
$TRACEWID
 40
1.0
  9
$TEXTSTYLE
  7
Standard
  9
$CLAYER
  8
0
  9
$CELTYPE
  6
ByLayer
  9
$CECOLOR
 62
   256
  9
$CELTSCALE
 40
1.0
  9
$DISPSILH
 70
     0
  9
$DIMSCALE
 40
1.0
  9
$DIMASZ
 40
3.302
  9
$DIMEXO
 40
1.0
  9
$DIMDLI
 40
3.75
  9
$DIMRND
 40
0.0
  9
$DIMDLE
 40
0.0
  9
$DIMEXE
 40
1.0
  9
$DIMTP
 40
0.0
  9
$DIMTM
 40
0.0
  9
$DIMTXT
 40
3.5
  9
$DIMCEN
 40
2.5
  9
$DIMTSZ
 40
0.0
  9
$DIMTOL
 70
     0
  9
$DIMLIM
 70
     0
  9
$DIMTIH
 70
     1
  9
$DIMTOH
 70
     1
  9
$DIMSE1
 70
     0
  9
$DIMSE2
 70
     0
  9
$DIMTAD
 70
     1
  9
$DIMZIN
 70
     0
  9
$DIMBLK
  1

  9
$DIMASO
 70
     1
  9
$DIMSHO
 70
     1
  9
$DIMPOST
  1

  9
$DIMAPOST
  1

  9
$DIMALT
 70
     0
  9
$DIMALTD
 70
     3
  9
$DIMALTF
 40
0.0393700787
  9
$DIMLFAC
 40
1.0
  9
$DIMTOFL
 70
     1
  9
$DIMTVP
 40
0.0
  9
$DIMTIX
 70
     0
  9
$DIMSOXD
 70
     0
  9
$DIMSAH
 70
     0
  9
$DIMBLK1
  1

  9
$DIMBLK2
  1

  9
$DIMSTYLE
  2
ISO-25
  9
$DIMCLRD
 70
     0
  9
$DIMCLRE
 70
     0
  9
$DIMCLRT
 70
     0
  9
$DIMTFAC
 40
1.0
  9
$DIMGAP
 40
1.524
  9
$DIMJUST
 70
     0
  9
$DIMSD1
 70
     0
  9
$DIMSD2
 70
     0
  9
$DIMTOLJ
 70
     0
  9
$DIMTZIN
 70
     0
  9
$DIMALTZ
 70
     0
  9
$DIMALTTZ
 70
     0
  9
$DIMUPT
 70
     0
  9
$DIMDEC
 70
     2
  9
$DIMTDEC
 70
     2
  9
$DIMALTU
 70
     2
  9
$DIMALTTD
 70
     3
  9
$DIMTXSTY
  7
Standard
  9
$DIMAUNIT
 70
     0
  9
$DIMADEC
 70
     2
  9
$DIMALTRND
 40
0.0
  9
$DIMAZIN
 70
     0
  9
$DIMDSEP
 70
    44
  9
$DIMATFIT
 70
     3
  9
$DIMFRAC
 70
     0
  9
$DIMLDRBLK
  1

  9
$DIMLUNIT
 70
     2
  9
$DIMLWD
 70
    -2
  9
$DIMLWE
 70
    -2
  9
$DIMTMOVE
 70
     0
  9
$LUNITS
 70
     2
  9
$LUPREC
 70
     2
  9
$SKETCHINC
 40
1.0
  9
$FILLETRAD
 40
10.0
  9
$AUNITS
 70
     0
  9
$AUPREC
 70
     2
  9
$MENU
  1
.
  9
$ELEVATION
 40
0.0
  9
$PELEVATION
 40
0.0
  9
$THICKNESS
 40
0.0
  9
$LIMCHECK
 70
     0
  9
$CHAMFERA
 40
0.0
  9
$CHAMFERB
 40
0.0
  9
$CHAMFERC
 40
0.0
  9
$CHAMFERD
 40
0.0
  9
$SKPOLY
 70
     0
  9
$TDCREATE
 40
2457780.913984583
  9
$TDUCREATE
 40
2457780.872317917
  9
$TDUPDATE
 40
2457780.914116759
  9
$TDUUPDATE
 40
2457780.872450093
  9
$TDINDWG
 40
0.0000000116
  9
$TDUSRTIMER
 40
0.0000000116
  9
$USRTIMER
 70
     1
  9
$ANGBASE
 50
0.0
  9
$ANGDIR
 70
     0
  9
$PDMODE
 70
     0
  9
$PDSIZE
 40
-1.0
  9
$PLINEWID
 40
0.0
  9
$SPLFRAME
 70
     0
  9
$SPLINETYPE
 70
     6
  9
$SPLINESEGS
 70
     8
  9
$HANDSEED
  5
ED
  9
$SURFTAB1
 70
     6
  9
$SURFTAB2
 70
     6
  9
$SURFTYPE
 70
     6
  9
$SURFU
 70
     6
  9
$SURFV
 70
     6
  9
$UCSBASE
  2

  9
$UCSNAME
  2

  9
$UCSORG
 10
0.0
 20
0.0
 30
0.0
  9
$UCSXDIR
 10
1.0
 20
0.0
 30
0.0
  9
$UCSYDIR
 10
0.0
 20
1.0
 30
0.0
  9
$UCSORTHOREF
  2

  9
$UCSORTHOVIEW
 70
     0
  9
$UCSORGTOP
 10
0.0
 20
0.0
 30
0.0
  9
$UCSORGBOTTOM
 10
0.0
 20
0.0
 30
0.0
  9
$UCSORGLEFT
 10
0.0
 20
0.0
 30
0.0
  9
$UCSORGRIGHT
 10
0.0
 20
0.0
 30
0.0
  9
$UCSORGFRONT
 10
0.0
 20
0.0
 30
0.0
  9
$UCSORGBACK
 10
0.0
 20
0.0
 30
0.0
  9
$PUCSBASE
  2

  9
$PUCSNAME
  2

  9
$PUCSORG
 10
0.0
 20
0.0
 30
0.0
  9
$PUCSXDIR
 10
1.0
 20
0.0
 30
0.0
  9
$PUCSYDIR
 10
0.0
 20
1.0
 30
0.0
  9
$PUCSORTHOREF
  2

  9
$PUCSORTHOVIEW
 70
     0
  9
$PUCSORGTOP
 10
0.0
 20
0.0
 30
0.0
  9
$PUCSORGBOTTOM
 10
0.0
 20
0.0
 30
0.0
  9
$PUCSORGLEFT
 10
0.0
 20
0.0
 30
0.0
  9
$PUCSORGRIGHT
 10
0.0
 20
0.0
 30
0.0
  9
$PUCSORGFRONT
 10
0.0
 20
0.0
 30
0.0
  9
$PUCSORGBACK
 10
0.0
 20
0.0
 30
0.0
  9
$USERI1
 70
     0
  9
$USERI2
 70
     0
  9
$USERI3
 70
     0
  9
$USERI4
 70
     0
  9
$USERI5
 70
     0
  9
$USERR1
 40
0.0
  9
$USERR2
 40
0.0
  9
$USERR3
 40
0.0
  9
$USERR4
 40
0.0
  9
$USERR5
 40
0.0
  9
$WORLDVIEW
 70
     1
  9
$SHADEDGE
 70
     3
  9
$SHADEDIF
 70
    70
  9
$TILEMODE
 70
     1
  9
$MAXACTVP
 70
    64
  9
$PINSBASE
 10
0.0
 20
0.0
 30
0.0
  9
$PLIMCHECK
 70
     0
  9
$PEXTMIN
 10
1.0000000000E+20
 20
1.0000000000E+20
 30
1.0000000000E+20
  9
$PEXTMAX
 10
-1.0000000000E+20
 20
-1.0000000000E+20
 30
-1.0000000000E+20
  9
$PLIMMIN
 10
0.0
 20
0.0
  9
$PLIMMAX
 10
420.0
 20
297.0
  9
$UNITMODE
 70
     0
  9
$VISRETAIN
 70
     1
  9
$PLINEGEN
 70
     0
  9
$PSLTSCALE
 70
     1
  9
$TREEDEPTH
 70
  3020
  9
$CMLSTYLE
  2
Standard
  9
$CMLJUST
 70
     0
  9
$CMLSCALE
 40
20.0
  9
$PROXYGRAPHICS
 70
     1
  9
$MEASUREMENT
 70
     1
  9
$CELWEIGHT
370
    -1
  9
$ENDCAPS
280
     0
  9
$JOINSTYLE
280
     0
  9
$LWDISPLAY
290
     1
  9
$INSUNITS
 70
     4
  9
$HYPERLINKBASE
  1

  9
$STYLESHEET
  1

  9
$XEDIT
290
     1
  9
$CEPSNTYPE
380
     0
  9
$PSTYLEMODE
290
     1
  9
$FINGERPRINTGUID
  2
{924DAFA1-4A8C-4A8F-B471-868990A413C2}
  9
$VERSIONGUID
  2
{FAEB1C32-E019-11D5-929B-00C0DF256EC4}
  9
$EXTNAMES
290
     1
  9
$PSVPSCALE
 40
0.0
  9
$OLESTARTUP
290
     0
  0
ENDSEC
  0
SECTION
  2
CLASSES
  0
CLASS
  1
ACDBDICTIONARYWDFLT
  2
AcDbDictionaryWithDefault
  3
ObjectDBX Classes
 90
        0
280
     0
281
     0
  0
CLASS
  1
VISUALSTYLE
  2
AcDbVisualStyle
  3
ObjectDBX Classes
 90
     4095
280
     0
281
     0
  0
CLASS
  1
MATERIAL
  2
AcDbMaterial
  3
ObjectDBX Classes
 90
     1153
280
     0
281
     0
  0
CLASS
  1
SCALE
  2
AcDbScale
  3
ObjectDBX Classes
 90
     1153
280
     0
281
     0
  0
CLASS
  1
SUN
  2
AcDbSun
  3
SCENEOE
 90
     1153
280
     0
281
     0
  0
CLASS
  1
ACDBPLACEHOLDER
  2
AcDbPlaceHolder
  3
ObjectDBX Classes
 90
        0
280
     0
281
     0
  0
CLASS
  1
LAYOUT
  2
AcDbLayout
  3
ObjectDBX Classes
 90
        0
280
     0
281
     0
  0
ENDSEC
  0
SECTION
  2
TABLES
  0
TABLE
  2
VPORT
  5
8
330
0
100
AcDbSymbolTable
 70
     1
  0
VPORT
  5
29
330
8
100
AcDbSymbolTableRecord
100
AcDbViewportTableRecord
  2
*Active
 70
     0
 10
0.0
 20
0.0
 11
1.0
 21
1.0
 12
5.8245614035
 22
2.0905279575
 13
0.0
 23
0.0
 14
10.0
 24
10.0
 15
10.0
 25
10.0
 16
0.0
 26
0.0
 36
1.0
 17
0.0
 27
0.0
 37
0.0
 40
178.4107615632
 41
2.8471376701
 42
50.0
 43
0.0
 44
0.0
 50
0.0
 51
0.0
 71
     0
 72
   100
 73
     1
 74
     3
 75
     0
 76
     0
 77
     0
 78
     0
281
     0
 65
     1
110
0.0
120
0.0
130
0.0
111
1.0
121
0.0
131
0.0
112
0.0
122
1.0
132
0.0
 79
     0
146
0.0
  0
ENDTAB
  0
TABLE
  2
LTYPE
  5
5
330
0
100
AcDbSymbolTable
 70
     6
  0
LTYPE
  5
14
330
5
100
AcDbSymbolTableRecord
100
AcDbLinetypeTableRecord
  2
ByBlock
 70
     0
  3

 72
    65
 73
     0
 40
0.0
  0
LTYPE
  5
15
330
5
100
AcDbSymbolTableRecord
100
AcDbLinetypeTableRecord
  2
ByLayer
 70
     0
  3

 72
    65
 73
     0
 40
0.0
  0
LTYPE
  5
16
330
5
100
AcDbSymbolTableRecord
100
AcDbLinetypeTableRecord
  2
Continuous
 70
     0
  3
Solid line
 72
    65
 73
     0
 40
0.0
  0
LTYPE
  5
6A
330
5
100
AcDbSymbolTableRecord
100
AcDbLinetypeTableRecord
  2
HIDDEN
 70
     0
  3
Hidden __ __ __ __ __ __ __ __ __ __ __ __ __ __
 72
    65
 73
     2
 40
1.905
 49
1.27
 74
     0
 49
-0.635
 74
     0
  0
LTYPE
  5
6B
330
5
100
AcDbSymbolTableRecord
100
AcDbLinetypeTableRecord
  2
PHANTOM
 70
     0
  3
Phantom ______  __  __  ______  __  __  ______
 72
    65
 73
     6
 40
12.7
 49
6.35
 74
     0
 49
-1.27
 74
     0
 49
1.27
 74
     0
 49
-1.27
 74
     0
 49
1.27
 74
     0
 49
-1.27
 74
     0
  0
LTYPE
  5
6C
330
5
100
AcDbSymbolTableRecord
100
AcDbLinetypeTableRecord
  2
CENTER
 70
     0
  3
Center ____ _ ____ _ ____ _ ____ _ ____ _ ____
 72
    65
 73
     4
 40
10.16
 49
6.35
 74
     0
 49
-1.27
 74
     0
 49
1.27
 74
     0
 49
-1.27
 74
     0
  0
LTYPE
  5
6D
330
5
100
AcDbSymbolTableRecord
100
AcDbLinetypeTableRecord
  2
CENTERX2
 70
     0
  3
Center (2x) ________  __  ________  __  _____
 72
    65
 73
     4
 40
20.32
 49
12.7
 74
     0
 49
-2.54
 74
     0
 49
2.54
 74
     0
 49
-2.54
 74
     0
  0
LTYPE
  5
6E
330
5
100
AcDbSymbolTableRecord
100
AcDbLinetypeTableRecord
  2
DOT2
 70
     0
  3
Dot (.5x) ........................................
 72
    65
 73
     2
 40
0.635
 49
0.0
 74
     0
 49
-0.635
 74
     0
  0
ENDTAB
  0
TABLE
  2
LAYER
  5
2
330
0
100
AcDbSymbolTable
 70
     1
  0
LAYER
  5
10
330
2
100
AcDbSymbolTableRecord
100
AcDbLayerTableRecord
  2
0
 70
     0
 62
     7
  6
Continuous
370
    -3
390
F
  0
ENDTAB
  0
TABLE
  2
STYLE
  5
3
330
0
100
AcDbSymbolTable
 70
     1
  0
STYLE
  5
11
330
3
100
AcDbSymbolTableRecord
100
AcDbTextStyleTableRecord
  2
Standard
 70
     0
 40
0.0
 41
1.0
 50
0.0
 71
     0
 42
3.5
  3
txt
  4

  0
ENDTAB
  0
TABLE
  2
VIEW
  5
6
330
0
100
AcDbSymbolTable
 70
     0
  0
ENDTAB
  0
TABLE
  2
UCS
  5
7
330
0
100
AcDbSymbolTable
 70
     0
  0
ENDTAB
  0
TABLE
  2
APPID
  5
9
330
0
100
AcDbSymbolTable
 70
     1
  0
APPID
  5
12
330
9
100
AcDbSymbolTableRecord
100
AcDbRegAppTableRecord
  2
ACAD
 70
     0
  0
ENDTAB
  0
TABLE
  2
DIMSTYLE
  5
A
330
0
100
AcDbSymbolTable
 70
     1
100
AcDbDimStyleTable
  0
DIMSTYLE
105
27
330
A
100
AcDbSymbolTableRecord
100
AcDbDimStyleTableRecord
  2
ISO-25
 70
     0
 41
2.5
 42
0.625
 43
3.75
 44
1.25
 73
     0
 74
     0
 77
     1
 78
     8
140
2.5
141
2.5
143
0.0393700787
147
0.625
171
     3
172
     1
178
     0
271
     2
272
     2
274
     3
278
    44
283
     0
284
     8
340
11
  0
ENDTAB
  0
TABLE
  2
BLOCK_RECORD
  5
1
330
0
100
AcDbSymbolTable
 70
     1
  0
BLOCK_RECORD
  5
1F
330
1
100
AcDbSymbolTableRecord
100
AcDbBlockTableRecord
  2
*Model_Space
340
22
  0
BLOCK_RECORD
  5
1B
330
1
100
AcDbSymbolTableRecord
100
AcDbBlockTableRecord
  2
*Paper_Space
340
1E
  0
BLOCK_RECORD
  5
23
330
1
100
AcDbSymbolTableRecord
100
AcDbBlockTableRecord
  2
*Paper_Space0
340
26
  0
ENDTAB
  0
ENDSEC
  0
SECTION
  2
BLOCKS
  0
BLOCK
  5
20
330
1F
100
AcDbEntity
  8
0
100
AcDbBlockBegin
  2
*Model_Space
 70
     0
 10
0.0
 20
0.0
 30
0.0
  3
*Model_Space
  1
*Model_Space
  0
ENDBLK
  5
21
330
1F
100
AcDbEntity
  8
0
100
AcDbBlockEnd
  0
BLOCK
  5
1C
330
1B
100
AcDbEntity
 67
     1
  8
0
100
AcDbBlockBegin
  2
*Paper_Space
 70
     0
 10
0.0
 20
0.0
 30
0.0
  3
*Paper_Space
  1
*Paper_Space
  0
ENDBLK
  5
1D
330
1B
100
AcDbEntity
 67
     1
  8
0
100
AcDbBlockEnd
  0
BLOCK
  5
24
330
23
100
AcDbEntity
  8
0
100
AcDbBlockBegin
  2
*Paper_Space0
 70
     0
 10
0.0
 20
0.0
 30
0.0
  3
*Paper_Space0
  1
*Paper_Space0
  0
ENDBLK
  5
25
330
23
100
AcDbEntity
  8
0
100
AcDbBlockEnd
  0
ENDSEC
  0
SECTION
  2
ENTITIES
  0
LINE
  5
6F
330
1F
100
AcDbEntity
  8
0
  6
Continuous
 62
     7
370
    15
100
AcDbLine
 10
-243.1754385965
 20
-85.3657277107
 30
0.0
 11
254.8245614035
 21
-85.3657277107
 31
0.0
  0
LINE
  5
70
330
1F
100
AcDbEntity
  8
0
  6
Continuous
 62
     7
370
    15
100
AcDbLine
 10
254.8245614035
 20
-85.3657277107
 30
0.0
 11
254.8245614035
 21
89.5467836257
 31
0.0
  0
LINE
  5
71
330
1F
100
AcDbEntity
  8
0
  6
Continuous
 62
     7
370
    15
100
AcDbLine
 10
254.8245614035
 20
89.5467836257
 30
0.0
 11
-243.1754385965
 21
81.5467836257
 31
0.0
  0
LINE
  5
72
330
1F
100
AcDbEntity
  8
0
  6
Continuous
 62
     7
370
    15
100
AcDbLine
 10
-243.1754385965
 20
81.5467836257
 30
0.0
 11
-243.1754385965
 21
-85.3657277107
 31
0.0
  0
SPLINE
  5
73
330
1F
100
AcDbEntity
  8
0
  6
Continuous
 62
     7
370
    15
100
AcDbSpline
210
0.0
220
0.0
230
1.0
 70
     8
 71
     3
 72
    14
 73
    10
 74
     0
 42
0.000000001
 43
0.00000001
 40
0.0
 40
0.0
 40
0.0
 40
0.0
 40
1.0
 40
1.0
 40
1.0
 40
2.0
 40
2.0
 40
2.0
 40
2.118961857933381
 40
2.118961857933381
 40
2.118961857933381
 40
2.118961857933381
 10
24.68966887612777
 20
-34.28080013821226
 30
0.0
 10
26.51167862022044
 20
-39.67132232297499
 30
0.0
 10
29.88040110199302
 20
-44.76891171421052
 30
0.0
 10
30.15569810840587
 20
-50.45236669250043
 30
0.0
 10
30.29288138961981
 20
-53.28448976100976
 30
0.0
 10
28.29132469610729
 20
-56.37167274339031
 30
0.0
 10
25.82770557724781
 20
-57.77535403378972
 30
0.0
 10
25.03839690789743
 20
-58.22507363656247
 30
0.0
 10
24.22833421138847
 20
-58.62786421262368
 30
0.0
 10
23.40198059156537
 20
-58.99397423444861
 30
0.0
  0
SPLINE
  5
74
330
1F
100
AcDbEntity
  8
0
  6
Continuous
 62
     7
370
    15
100
AcDbSpline
210
0.0
220
0.0
230
1.0
 70
     8
 71
     3
 72
     8
 73
     4
 74
     0
 42
0.000000001
 43
0.00000001
 40
0.0
 40
0.0
 40
0.0
 40
0.0
 40
0.8083751129001618
 40
0.8083751129001618
 40
0.8083751129001618
 40
0.8083751129001618
 10
23.40198059156537
 20
-58.99397423444862
 30
0.0
 10
20.67592762693335
 20
-60.20173237386476
 30
0.0
 10
17.83912214457401
 20
-60.50811379709087
 30
0.0
 10
15.03342855348288
 20
-60.25686852115237
 30
0.0
  0
SPLINE
  5
75
330
1F
100
AcDbEntity
  8
0
  6
Continuous
 62
     7
370
    15
100
AcDbSpline
210
0.0
220
0.0
230
1.0
 70
     8
 71
     2
 72
     6
 73
     3
 74
     0
 42
0.000000001
 43
0.00000001
 40
0.0
 40
0.0
 40
0.0
 40
0.7766511649164208
 40
0.7766511649164208
 40
0.7766511649164208
 10
15.03342855348288
 20
-60.25686852115237
 30
0.0
 10
10.28380462874824
 20
-63.01298424929846
 30
0.0
 10
5.099666083856698
 20
-63.75855639265296
 30
0.0
  0
ARC
  5
76
330
1F
100
AcDbEntity
  8
0
  6
Continuous
 62
     7
370
    15
100
AcDbCircle
 10
0.0
 20
-62.9717871551
 30
0.0
 40
5.159999999999998
100
AcDbArc
 50
287.711700152
 51
351.2296360257
  0
LINE
  5
77
330
1F
100
AcDbEntity
  8
0
  6
Continuous
 62
     7
370
    15
100
AcDbLine
 10
3.8698143847
 20
-67.8871999351
 30
0.0
 11
1.5698143847
 21
-67.8871999351
 31
0.0
  0
LINE
  5
78
330
1F
100
AcDbEntity
  8
0
  6
Continuous
 62
     7
370
    15
100
AcDbLine
 10
3.8698143847
 20
-67.8871999351
 30
0.0
 11
3.8698143847
 21
-70.9871999351
 31
0.0
  0
LINE
  5
79
330
1F
100
AcDbEntity
  8
0
  6
Continuous
 62
     7
370
    15
100
AcDbLine
 10
3.8698143847
 20
-70.9871999351
 30
0.0
 11
1.5
 21
-70.9871999351
 31
0.0
  0
LINE
  5
7A
330
1F
100
AcDbEntity
  8
0
  6
Continuous
 62
     7
370
    15
100
AcDbLine
 10
1.5
 20
-70.9871999351
 30
0.0
 11
1.5
 21
-73.2571999351
 31
0.0
  0
LINE
  5
7B
330
1F
100
AcDbEntity
  8
0
  6
Continuous
 62
     7
370
    15
100
AcDbLine
 10
1.5
 20
-73.2571999351
 30
0.0
 11
-1.5
 21
-73.2571999351
 31
0.0
  0
LINE
  5
7C
330
1F
100
AcDbEntity
  8
0
  6
Continuous
 62
     7
370
    15
100
AcDbLine
 10
-1.5
 20
-70.9871999351
 30
0.0
 11
-1.5
 21
-73.2571999351
 31
0.0
  0
LINE
  5
7D
330
1F
100
AcDbEntity
  8
0
  6
Continuous
 62
     7
370
    15
100
AcDbLine
 10
-3.8698143847
 20
-70.9871999351
 30
0.0
 11
-1.5
 21
-70.9871999351
 31
0.0
  0
LINE
  5
7E
330
1F
100
AcDbEntity
  8
0
  6
Continuous
 62
     7
370
    15
100
AcDbLine
 10
-3.8698143847
 20
-67.8871999351
 30
0.0
 11
-3.8698143847
 21
-70.9871999351
 31
0.0
  0
LINE
  5
7F
330
1F
100
AcDbEntity
  8
0
  6
Continuous
 62
     7
370
    15
100
AcDbLine
 10
-3.8698143847
 20
-67.8871999351
 30
0.0
 11
-1.5698143847
 21
-67.8871999351
 31
0.0
  0
ARC
  5
80
330
1F
100
AcDbEntity
  8
0
  6
Continuous
 62
     7
370
    15
100
AcDbCircle
 10
0.0
 20
-62.9717871551
 30
0.0
 40
5.159999999999996
100
AcDbArc
 50
188.7703639743
 51
252.288299848
  0
SPLINE
  5
81
330
1F
100
AcDbEntity
  8
0
  6
Continuous
 62
     7
370
    15
100
AcDbSpline
210
0.0
220
0.0
230
1.0
 70
     8
 71
     2
 72
     6
 73
     3
 74
     0
 42
0.000000001
 43
0.00000001
 40
0.0
 40
0.0
 40
0.0
 40
0.7766511649164208
 40
0.7766511649164208
 40
0.7766511649164208
 10
-15.03342855348288
 20
-60.25686852115238
 30
0.0
 10
-10.28380462874823
 20
-63.01298424929846
 30
0.0
 10
-5.099666083856698
 20
-63.75855639265296
 30
0.0
  0
SPLINE
  5
82
330
1F
100
AcDbEntity
  8
0
  6
Continuous
 62
     7
370
    15
100
AcDbSpline
210
0.0
220
0.0
230
1.0
 70
     8
 71
     3
 72
     8
 73
     4
 74
     0
 42
0.000000001
 43
0.00000001
 40
0.0
 40
0.0
 40
0.0
 40
0.0
 40
0.8083751129001618
 40
0.8083751129001618
 40
0.8083751129001618
 40
0.8083751129001618
 10
-23.40198059156537
 20
-58.99397423444863
 30
0.0
 10
-20.67592762693335
 20
-60.20173237386476
 30
0.0
 10
-17.83912214457401
 20
-60.50811379709088
 30
0.0
 10
-15.03342855348288
 20
-60.25686852115238
 30
0.0
  0
SPLINE
  5
83
330
1F
100
AcDbEntity
  8
0
  6
Continuous
 62
     7
370
    15
100
AcDbSpline
210
0.0
220
0.0
230
1.0
 70
     8
 71
     3
 72
    14
 73
    10
 74
     0
 42
0.000000001
 43
0.00000001
 40
0.0
 40
0.0
 40
0.0
 40
0.0
 40
1.0
 40
1.0
 40
1.0
 40
2.0
 40
2.0
 40
2.0
 40
2.118961857933381
 40
2.118961857933381
 40
2.118961857933381
 40
2.118961857933381
 10
-24.68966887612778
 20
-34.28080013821226
 30
0.0
 10
-26.51167862022045
 20
-39.67132232297499
 30
0.0
 10
-29.88040110199303
 20
-44.76891171421051
 30
0.0
 10
-30.15569810840588
 20
-50.45236669250042
 30
0.0
 10
-30.29288138961982
 20
-53.28448976100974
 30
0.0
 10
-28.29132469610731
 20
-56.37167274339031
 30
0.0
 10
-25.82770557724783
 20
-57.77535403378972
 30
0.0
 10
-25.03839690789744
 20
-58.22507363656247
 30
0.0
 10
-24.22833421138849
 20
-58.62786421262368
 30
0.0
 10
-23.40198059156538
 20
-58.99397423444861
 30
0.0
  0
ARC
  5
84
330
1F
100
AcDbEntity
  8
0
  6
Continuous
 62
     7
370
    15
100
AcDbCircle
 10
0.0
 20
18.3564476127
 30
0.0
 40
58.14
100
AcDbArc
 50
109.453333637
 51
244.8709247249
  0
SPLINE
  5
85
330
1F
100
AcDbEntity
  8
0
  6
Continuous
 62
     7
370
    15
100
AcDbSpline
210
0.0
220
0.0
230
1.0
 70
     8
 71
     3
 72
     8
 73
     4
 74
     0
 42
0.000000001
 43
0.00000001
 40
0.0
 40
0.0
 40
0.0
 40
0.0
 40
1.0
 40
1.0
 40
1.0
 40
1.0
 10
-19.36288655122038
 20
73.17741280304175
 30
0.0
 10
-13.90744836857194
 20
76.79881104776815
 30
0.0
 10
-5.891047161571285
 20
79.6446375239926
 30
0.0
 10
0.0
 20
74.7568713211162
 30
0.0
  0
SPLINE
  5
86
330
1F
100
AcDbEntity
  8
0
  6
Continuous
 62
     7
370
    15
100
AcDbSpline
210
0.0
220
0.0
230
1.0
 70
     8
 71
     3
 72
     8
 73
     4
 74
     0
 42
0.000000001
 43
0.00000001
 40
0.0
 40
0.0
 40
0.0
 40
0.0
 40
1.0
 40
1.0
 40
1.0
 40
1.0
 10
19.36288655122038
 20
73.17741280304175
 30
0.0
 10
13.90744836857192
 20
76.79881104776804
 30
0.0
 10
5.891047161571299
 20
79.64463752399269
 30
0.0
 10
0.0
 20
74.7568713211162
 30
0.0
  0
ARC
  5
87
330
1F
100
AcDbEntity
  8
0
  6
Continuous
 62
     7
370
    15
100
AcDbCircle
 10
0.0
 20
18.3564476127
 30
0.0
 40
58.14000000000001
100
AcDbArc
 50
295.1290752751
 51
70.546666363
  0
SPLINE
  5
88
330
1F
100
AcDbEntity
  8
0
  6
Continuous
 62
     7
370
    15
100
AcDbSpline
210
0.0
220
0.0
230
1.0
 70
     8
 71
     3
 72
     8
 73
     4
 74
     0
 42
0.000000001
 43
0.00000001
 40
0.0
 40
0.0
 40
0.0
 40
0.0
 40
0.6390400524134258
 40
0.6390400524134258
 40
0.6390400524134258
 40
0.6390400524134258
 10
-19.76803239648605
 20
-51.77553784029392
 30
0.0
 10
-19.1823738844204
 20
-51.89321602121622
 30
0.0
 10
-18.59361303825667
 20
-51.98568061737679
 30
0.0
 10
-18.00175020976764
 20
-52.05293158880507
 30
0.0
  0
SPLINE
  5
89
330
1F
100
AcDbEntity
  8
0
  6
Continuous
 62
     7
370
    15
100
AcDbSpline
210
0.0
220
0.0
230
1.0
 70
     8
 71
     3
 72
    17
 73
    13
 74
     0
 42
0.000000001
 43
0.00000001
 40
7.121891120869106
 40
7.121891120869106
 40
7.121891120869106
 40
7.121891120869106
 40
8.0
 40
8.0
 40
8.0
 40
9.0
 40
9.0
 40
9.0
 40
10.0
 40
10.0
 40
10.0
 40
10.36839013399364
 40
10.36839013399364
 40
10.36839013399364
 40
10.36839013399364
 10
-19.21420309180964
 20
-43.88885291950933
 30
0.0
 10
-19.34133672800156
 20
-43.92206563965902
 30
0.0
 10
-19.80108058972218
 20
-44.15636539606149
 30
0.0
 10
-20.09951478308106
 20
-44.42384751267245
 30
0.0
 10
-21.02449927573765
 20
-45.25289731806991
 30
0.0
 10
-21.54384945604507
 20
-46.75067903793418
 30
0.0
 10
-21.59783216761807
 20
-47.96271656909675
 30
0.0
 10
-21.64792832025199
 20
-49.08749180527708
 30
0.0
 10
-21.53379790432932
 20
-50.82597730837495
 30
0.0
 10
-20.45254788122598
 20
-51.5311645336418
 30
0.0
 10
-20.25521757246758
 20
-51.65986262374214
 30
0.0
 10
-20.0121951329668
 20
-51.7264774645184
 30
0.0
 10
-19.76803239648605
 20
-51.77553784029391
 30
0.0
  0
ARC
  5
8A
330
1F
100
AcDbEntity
  8
0
  6
Continuous
 62
     7
370
    15
100
AcDbCircle
 10
-17.4299026488
 20
-43.6181414818
 30
0.0
 40
1.804719577512474
100
AcDbArc
 50
188.6270389836
 51
250.623830555
  0
SPLINE
  5
8B
330
1F
100
AcDbEntity
  8
0
  6
Continuous
 62
     7
370
    15
100
AcDbSpline
210
0.0
220
0.0
230
1.0
 70
     8
 71
     2
 72
     6
 73
     3
 74
     0
 42
0.000000001
 43
0.00000001
 40
0.0
 40
0.0
 40
0.0
 40
0.7112362980199994
 40
0.7112362980199994
 40
0.7112362980199994
 10
-18.02865229094792
 20
-45.32064305869407
 30
0.0
 10
-18.75119791813658
 20
-48.80581654271746
 30
0.0
 10
-18.00175020976764
 20
-52.05293158880506
 30
0.0
  0
SPLINE
  5
8C
330
1F
100
AcDbEntity
  8
0
  6
Continuous
 62
     7
370
    15
100
AcDbSpline
210
0.0
220
0.0
230
1.0
 70
     8
 71
     3
 72
     8
 73
     4
 74
     0
 42
0.000000001
 43
0.00000001
 40
0.0
 40
0.0
 40
0.0
 40
0.0
 40
1.0
 40
1.0
 40
1.0
 40
1.0
 10
-3.06069073385259
 20
-58.64761910130985
 30
0.0
 10
-2.290874719408495
 20
-52.90385686670011
 30
0.0
 10
-2.02584148553575
 20
-47.08885205212437
 30
0.0
 10
-3.869408273380202
 20
-41.6449134738566
 30
0.0
  0
SPLINE
  5
8D
330
1F
100
AcDbEntity
  8
0
  6
Continuous
 62
     7
370
    15
100
AcDbSpline
210
0.0
220
0.0
230
1.0
 70
     8
 71
     3
 72
    14
 73
    10
 74
     0
 42
0.000000001
 43
0.00000001
 40
0.0
 40
0.0
 40
0.0
 40
0.0
 40
1.0
 40
1.0
 40
1.0
 40
2.0
 40
2.0
 40
2.0
 40
3.0
 40
3.0
 40
3.0
 40
3.0
 10
-6.925328621339897
 20
-46.41446837730779
 30
0.0
 10
-7.434872599318376
 20
-46.91942484741138
 30
0.0
 10
-7.940323587115614
 20
-48.04418867938327
 30
0.0
 10
-8.21187256840961
 20
-48.68769456238929
 30
0.0
 10
-9.695917502072806
 20
-52.20452471548666
 30
0.0
 10
-9.401531188209693
 20
-54.53710246120444
 30
0.0
 10
-6.700078614467619
 20
-57.08141219328792
 30
0.0
 10
-6.0934493919321
 20
-57.65275394093344
 30
0.0
 10
-3.796144513342624
 20
-58.88908072678367
 30
0.0
 10
-3.060690733852591
 20
-58.64761910130985
 30
0.0
  0
ARC
  5
8E
330
1F
100
AcDbEntity
  8
0
  6
Continuous
 62
     7
370
    15
100
AcDbCircle
 10
-5.2849017586
 20
-45.7413663988
 30
0.0
 40
1.773151591228228
100
AcDbArc
 50
202.3093841579
 51
72.8401581353
  0
SPLINE
  5
8F
330
1F
100
AcDbEntity
  8
0
  6
Continuous
 62
     7
370
    15
100
AcDbSpline
210
0.0
220
0.0
230
1.0
 70
     8
 71
     2
 72
     6
 73
     3
 74
     0
 42
0.000000001
 43
0.00000001
 40
0.0
 40
0.0
 40
0.0
 40
0.6287781511169995
 40
0.6287781511169995
 40
0.6287781511169995
 10
-4.761753895540127
 20
-44.04714596483286
 30
0.0
 10
-4.520148732190647
 20
-42.73402985453064
 30
0.0
 10
-3.869408273380202
 20
-41.6449134738566
 30
0.0
  0
SPLINE
  5
90
330
1F
100
AcDbEntity
  8
0
  6
Continuous
 62
     7
370
    15
100
AcDbSpline
210
0.0
220
0.0
230
1.0
 70
     8
 71
     2
 72
     6
 73
     3
 74
     0
 42
0.000000001
 43
0.00000001
 40
0.0
 40
0.0
 40
0.0
 40
0.6287781511169995
 40
0.6287781511169995
 40
0.6287781511169995
 10
4.761753895540116
 20
-44.04714596483286
 30
0.0
 10
4.520148732190636
 20
-42.73402985453064
 30
0.0
 10
3.869408273380191
 20
-41.6449134738566
 30
0.0
  0
ARC
  5
91
330
1F
100
AcDbEntity
  8
0
  6
Continuous
 62
     7
370
    15
100
AcDbCircle
 10
5.2849017586
 20
-45.7413663988
 30
0.0
 40
1.773151591228228
100
AcDbArc
 50
107.1598418647
 51
337.6906158421
  0
SPLINE
  5
92
330
1F
100
AcDbEntity
  8
0
  6
Continuous
 62
     7
370
    15
100
AcDbSpline
210
0.0
220
0.0
230
1.0
 70
     8
 71
     3
 72
    14
 73
    10
 74
     0
 42
0.000000001
 43
0.00000001
 40
0.0
 40
0.0
 40
0.0
 40
0.0
 40
1.0
 40
1.0
 40
1.0
 40
2.0
 40
2.0
 40
2.0
 40
3.0
 40
3.0
 40
3.0
 40
3.0
 10
6.925328621339886
 20
-46.41446837730779
 30
0.0
 10
7.434872599318363
 20
-46.91942484741138
 30
0.0
 10
7.940323587115603
 20
-48.04418867938327
 30
0.0
 10
8.211872568409602
 20
-48.68769456238929
 30
0.0
 10
9.695917502072792
 20
-52.20452471548666
 30
0.0
 10
9.40153118820968
 20
-54.53710246120444
 30
0.0
 10
6.700078614467604
 20
-57.08141219328792
 30
0.0
 10
6.093449391932086
 20
-57.65275394093344
 30
0.0
 10
3.79614451334261
 20
-58.88908072678367
 30
0.0
 10
3.060690733852576
 20
-58.64761910130985
 30
0.0
  0
SPLINE
  5
93
330
1F
100
AcDbEntity
  8
0
  6
Continuous
 62
     7
370
    15
100
AcDbSpline
210
0.0
220
0.0
230
1.0
 70
     8
 71
     3
 72
     8
 73
     4
 74
     0
 42
0.000000001
 43
0.00000001
 40
0.0
 40
0.0
 40
0.0
 40
0.0
 40
1.0
 40
1.0
 40
1.0
 40
1.0
 10
3.060690733852575
 20
-58.64761910130985
 30
0.0
 10
2.290874719408482
 20
-52.90385686670011
 30
0.0
 10
2.025841485535739
 20
-47.08885205212437
 30
0.0
 10
3.869408273380191
 20
-41.6449134738566
 30
0.0
  0
ARC
  5
94
330
1F
100
AcDbEntity
  8
0
  6
Continuous
 62
     7
370
    15
100
AcDbCircle
 10
0.0
 20
18.3564476127
 30
0.0
 40
56.57089744426476
100
AcDbArc
 50
292.9415624724
 51
75.2872705029
  0
SPLINE
  5
95
330
1F
100
AcDbEntity
  8
0
  6
Continuous
 62
     7
370
    15
100
AcDbSpline
210
0.0
220
0.0
230
1.0
 70
     8
 71
     2
 72
     6
 73
     3
 74
     0
 42
0.000000001
 43
0.00000001
 40
0.0
 40
0.0
 40
0.0
 40
0.8217055927073755
 40
0.8217055927073755
 40
0.8217055927073755
 10
14.36747135964116
 20
73.07246176190053
 30
0.0
 10
9.170215250237046
 20
72.6158390479061
 30
0.0
 10
6.028406753838402
 20
69.4200876547804
 30
0.0
  0
SPLINE
  5
96
330
1F
100
AcDbEntity
  8
0
  6
Continuous
 62
     7
370
    15
100
AcDbSpline
210
0.0
220
0.0
230
1.0
 70
     8
 71
     2
 72
     6
 73
     3
 74
     0
 42
0.000000001
 43
0.00000001
 40
0.0
 40
0.0
 40
0.0
 40
0.803226248114366
 40
0.803226248114366
 40
0.803226248114366
 10
13.03059317495874
 20
61.84801521542904
 30
0.0
 10
9.282520314637381
 20
65.42301186629116
 30
0.0
 10
6.028406753838402
 20
69.4200876547804
 30
0.0
  0
ARC
  5
97
330
1F
100
AcDbEntity
  8
0
  6
Continuous
 62
     7
370
    15
100
AcDbCircle
 10
0.0
 20
18.3564476127
 30
0.0
 40
45.4016829097461
100
AcDbArc
 50
106.6788439874
 51
73.3211560126
  0
SPLINE
  5
98
330
1F
100
AcDbEntity
  8
0
  6
Continuous
 62
     7
370
    15
100
AcDbSpline
210
0.0
220
0.0
230
1.0
 70
     8
 71
     2
 72
     6
 73
     3
 74
     0
 42
0.000000001
 43
0.00000001
 40
0.0
 40
0.0
 40
0.0
 40
0.803226248114366
 40
0.803226248114366
 40
0.803226248114366
 10
-13.03059317495874
 20
61.84801521542904
 30
0.0
 10
-9.282520314637363
 20
65.42301186629116
 30
0.0
 10
-6.028406753838384
 20
69.4200876547804
 30
0.0
  0
SPLINE
  5
99
330
1F
100
AcDbEntity
  8
0
  6
Continuous
 62
     7
370
    15
100
AcDbSpline
210
0.0
220
0.0
230
1.0
 70
     8
 71
     2
 72
     6
 73
     3
 74
     0
 42
0.000000001
 43
0.00000001
 40
0.0
 40
0.0
 40
0.0
 40
0.8217055927073755
 40
0.8217055927073755
 40
0.8217055927073755
 10
-14.36747135964115
 20
73.07246176190053
 30
0.0
 10
-9.170215250237028
 20
72.6158390479061
 30
0.0
 10
-6.028406753838384
 20
69.4200876547804
 30
0.0
  0
ARC
  5
9A
330
1F
100
AcDbEntity
  8
0
  6
Continuous
 62
     7
370
    15
100
AcDbCircle
 10
0.0
 20
18.3564476127
 30
0.0
 40
56.57089744426477
100
AcDbArc
 50
104.7127294971
 51
247.0584375276
  0
LINE
  5
9B
330
1F
100
AcDbEntity
  8
0
  6
Continuous
 62
     7
370
    15
100
AcDbLine
 10
-22.0508876367
 20
-33.7398554432
 30
0.0
 11
-25.3646225212
 21
-41.5687165591
 31
0.0
  0
SPLINE
  5
9C
330
1F
100
AcDbEntity
  8
0
  6
Continuous
 62
     7
370
    15
100
AcDbSpline
210
0.0
220
0.0
230
1.0
 70
     8
 71
     3
 72
     8
 73
     4
 74
     0
 42
0.000000001
 43
0.00000001
 40
0.0
 40
0.0
 40
0.0
 40
0.0
 40
0.7361362123351248
 40
0.7361362123351248
 40
0.7361362123351248
 40
0.7361362123351248
 10
-25.3646225211977
 20
-41.56871655909914
 30
0.0
 10
-25.58105216101274
 20
-42.2509731640386
 30
0.0
 10
-25.49027302071291
 20
-42.76345527287661
 30
0.0
 10
-25.09228510029135
 20
-43.10616288561893
 30
0.0
  0
ARC
  5
9D
330
1F
100
AcDbEntity
  8
0
  6
Continuous
 62
     7
370
    15
100
AcDbCircle
 10
-25.7054718815
 20
-44.8091314618
 30
0.0
 40
1.809999999999953
100
AcDbArc
 50
70.1976063518
 51
251.4782589597
  0
ARC
  5
9E
330
1F
100
AcDbEntity
  8
0
  6
Continuous
 62
     7
370
    15
100
AcDbCircle
 10
-26.1879062442
 20
-48.3330121136
 30
0.0
 40
1.81
100
AcDbArc
 50
92.9305905886
 51
255.5289710698
  0
ARC
  5
9F
330
1F
100
AcDbEntity
  8
0
  6
Continuous
 62
     7
370
    15
100
AcDbCircle
 10
-25.686176045
 20
-51.6237440318
 30
0.0
 40
1.810000000000105
100
AcDbArc
 50
121.809010292
 51
281.5356297758
  0
ARC
  5
A0
330
1F
100
AcDbEntity
  8
0
  6
Continuous
 62
     7
370
    15
100
AcDbCircle
 10
-24.0001647939
 20
-54.6312758915
 30
0.0
 40
1.809999999999948
100
AcDbArc
 50
137.0140282835
 51
303.8037122643
  0
ARC
  5
A1
330
1F
100
AcDbEntity
  8
0
  6
Continuous
 62
     7
370
    15
100
AcDbCircle
 10
-21.2169436938
 20
-56.4833040444
 30
0.0
 40
1.810000000000007
100
AcDbArc
 50
168.9146209994
 51
346.4687914627
  0
ARC
  5
A2
330
1F
100
AcDbEntity
  8
0
  6
Continuous
 62
     7
370
    15
100
AcDbCircle
 10
-17.6600168373
 20
-57.12194569
 30
0.0
 40
1.809999999999998
100
AcDbArc
 50
173.1733555783
 51
6.8266444217
  0
SPLINE
  5
A3
330
1F
100
AcDbEntity
  8
0
  6
Continuous
 62
     7
370
    15
100
AcDbSpline
210
0.0
220
0.0
230
1.0
 70
     8
 71
     2
 72
     6
 73
     3
 74
     0
 42
0.000000001
 43
0.00000001
 40
0.0
 40
0.0
 40
0.0
 40
0.8016179247736657
 40
0.8016179247736657
 40
0.8016179247736657
 10
-15.86284912369693
 20
-56.90679874199783
 30
0.0
 10
-10.48585545498828
 20
-61.69699312290697
 30
0.0
 10
-4.171533708173745
 20
-62.26562439906609
 30
0.0
  0
ARC
  5
A4
330
1F
100
AcDbEntity
  8
0
  6
Continuous
 62
     7
370
    15
100
AcDbCircle
 10
0.0
 20
-62.9133685301
 30
0.0
 40
4.221524124973136
100
AcDbArc
 50
171.173757131
 51
264.3456299774
  0
LINE
  5
A5
330
1F
100
AcDbEntity
  8
0
  6
Continuous
 62
     7
370
    15
100
AcDbLine
 10
-0.4159352165
 20
-67.1143522046
 30
0.0
 11
-0.4066604374
 21
-69.0890046955
 31
0.0
  0
LINE
  5
A6
330
1F
100
AcDbEntity
  8
0
  6
Continuous
 62
     7
370
    15
100
AcDbLine
 10
-0.4066604374
 20
-69.0890046955
 30
0.0
 11
-2.6805516393
 21
-69.0890046955
 31
0.0
  0
LINE
  5
A7
330
1F
100
AcDbEntity
  8
0
  6
Continuous
 62
     7
370
    15
100
AcDbLine
 10
-2.6805516393
 20
-69.0890046955
 30
0.0
 11
-2.6854747791
 21
-69.8167984045
 31
0.0
  0
LINE
  5
A8
330
1F
100
AcDbEntity
  8
0
  6
Continuous
 62
     7
370
    15
100
AcDbLine
 10
-2.6854747791
 20
-69.8167984045
 30
0.0
 11
-0.4066604374
 21
-69.8167984045
 31
0.0
  0
LINE
  5
A9
330
1F
100
AcDbEntity
  8
0
  6
Continuous
 62
     7
370
    15
100
AcDbLine
 10
-0.4066604374
 20
-69.8167984045
 30
0.0
 11
-0.4066604374
 21
-72.0956413436
 31
0.0
  0
LINE
  5
AA
330
1F
100
AcDbEntity
  8
0
  6
Continuous
 62
     7
370
    15
100
AcDbLine
 10
0.4066604374
 20
-72.0956413436
 30
0.0
 11
-0.4066604374
 21
-72.0956413436
 31
0.0
  0
LINE
  5
AB
330
1F
100
AcDbEntity
  8
0
  6
Continuous
 62
     7
370
    15
100
AcDbLine
 10
0.4066604374
 20
-69.8167984045
 30
0.0
 11
0.4066604374
 21
-72.0956413436
 31
0.0
  0
LINE
  5
AC
330
1F
100
AcDbEntity
  8
0
  6
Continuous
 62
     7
370
    15
100
AcDbLine
 10
2.6854747791
 20
-69.8167984045
 30
0.0
 11
0.4066604374
 21
-69.8167984045
 31
0.0
  0
LINE
  5
AD
330
1F
100
AcDbEntity
  8
0
  6
Continuous
 62
     7
370
    15
100
AcDbLine
 10
2.6805516393
 20
-69.0890046955
 30
0.0
 11
2.6854747791
 21
-69.8167984045
 31
0.0
  0
LINE
  5
AE
330
1F
100
AcDbEntity
  8
0
  6
Continuous
 62
     7
370
    15
100
AcDbLine
 10
0.4066604374
 20
-69.0890046955
 30
0.0
 11
2.6805516393
 21
-69.0890046955
 31
0.0
  0
LINE
  5
AF
330
1F
100
AcDbEntity
  8
0
  6
Continuous
 62
     7
370
    15
100
AcDbLine
 10
0.4159352165
 20
-67.1143522046
 30
0.0
 11
0.4066604374
 21
-69.0890046955
 31
0.0
  0
ARC
  5
B0
330
1F
100
AcDbEntity
  8
0
  6
Continuous
 62
     7
370
    15
100
AcDbCircle
 10
0.0
 20
-62.9133685301
 30
0.0
 40
4.221524124973144
100
AcDbArc
 50
275.6543700226
 51
8.826242869
  0
SPLINE
  5
B1
330
1F
100
AcDbEntity
  8
0
  6
Continuous
 62
     7
370
    15
100
AcDbSpline
210
0.0
220
0.0
230
1.0
 70
     8
 71
     2
 72
     6
 73
     3
 74
     0
 42
0.000000001
 43
0.00000001
 40
0.0
 40
0.0
 40
0.0
 40
0.8016179247736657
 40
0.8016179247736657
 40
0.8016179247736657
 10
15.86284912369692
 20
-56.90679874199783
 30
0.0
 10
10.48585545498827
 20
-61.69699312290697
 30
0.0
 10
4.171533708173729
 20
-62.26562439906609
 30
0.0
  0
ARC
  5
B2
330
1F
100
AcDbEntity
  8
0
  6
Continuous
 62
     7
370
    15
100
AcDbCircle
 10
17.6600168373
 20
-57.12194569
 30
0.0
 40
1.810000000000001
100
AcDbArc
 50
173.1733555783
 51
6.8266444217
  0
ARC
  5
B3
330
1F
100
AcDbEntity
  8
0
  6
Continuous
 62
     7
370
    15
100
AcDbCircle
 10
21.2169436938
 20
-56.4833040444
 30
0.0
 40
1.810000000000015
100
AcDbArc
 50
193.5312085373
 51
11.0853790006
  0
ARC
  5
B4
330
1F
100
AcDbEntity
  8
0
  6
Continuous
 62
     7
370
    15
100
AcDbCircle
 10
24.0001647939
 20
-54.6312758915
 30
0.0
 40
1.809999999999945
100
AcDbArc
 50
236.1962877357
 51
42.9859717165
  0
ARC
  5
B5
330
1F
100
AcDbEntity
  8
0
  6
Continuous
 62
     7
370
    15
100
AcDbCircle
 10
25.686176045
 20
-51.6237440318
 30
0.0
 40
1.810000000000066
100
AcDbArc
 50
258.4643702242
 51
58.190989708
  0
ARC
  5
B6
330
1F
100
AcDbEntity
  8
0
  6
Continuous
 62
     7
370
    15
100
AcDbCircle
 10
26.1879062442
 20
-48.3330121136
 30
0.0
 40
1.809999999999998
100
AcDbArc
 50
284.4710289302
 51
87.0694094114
  0
ARC
  5
B7
330
1F
100
AcDbEntity
  8
0
  6
Continuous
 62
     7
370
    15
100
AcDbCircle
 10
25.7054718815
 20
-44.8091314618
 30
0.0
 40
1.810000000000004
100
AcDbArc
 50
288.5217410403
 51
109.8023936482
  0
SPLINE
  5
B8
330
1F
100
AcDbEntity
  8
0
  6
Continuous
 62
     7
370
    15
100
AcDbSpline
210
0.0
220
0.0
230
1.0
 70
     8
 71
     3
 72
     8
 73
     4
 74
     0
 42
0.000000001
 43
0.00000001
 40
0.0
 40
0.0
 40
0.0
 40
0.0
 40
0.7361362123351248
 40
0.7361362123351248
 40
0.7361362123351248
 40
0.7361362123351248
 10
25.3646225211977
 20
-41.56871655909914
 30
0.0
 10
25.58105216101273
 20
-42.25097316403861
 30
0.0
 10
25.4902730207129
 20
-42.76345527287661
 30
0.0
 10
25.09228510029133
 20
-43.10616288561893
 30
0.0
  0
LINE
  5
B9
330
1F
100
AcDbEntity
  8
0
  6
Continuous
 62
     7
370
    15
100
AcDbLine
 10
22.0508876367
 20
-33.7398554432
 30
0.0
 11
25.3646225212
 21
-41.5687165591
 31
0.0
  0
ARC
  5
BA
330
1F
100
AcDbEntity
  8
0
  6
Continuous
 62
     7
370
    15
100
AcDbCircle
 10
17.4299026488
 20
-43.6181414818
 30
0.0
 40
1.804719577512474
100
AcDbArc
 50
289.376169445
 51
351.3729610164
  0
SPLINE
  5
BB
330
1F
100
AcDbEntity
  8
0
  6
Continuous
 62
     7
370
    15
100
AcDbSpline
210
0.0
220
0.0
230
1.0
 70
     8
 71
     3
 72
    17
 73
    13
 74
     0
 42
0.000000001
 43
0.00000001
 40
7.121891120869106
 40
7.121891120869106
 40
7.121891120869106
 40
7.121891120869106
 40
8.0
 40
8.0
 40
8.0
 40
9.0
 40
9.0
 40
9.0
 40
10.0
 40
10.0
 40
10.0
 40
10.36839013399364
 40
10.36839013399364
 40
10.36839013399364
 40
10.36839013399364
 10
19.21420309180963
 20
-43.88885291950933
 30
0.0
 10
19.34133672800154
 20
-43.92206563965902
 30
0.0
 10
19.80108058972217
 20
-44.15636539606149
 30
0.0
 10
20.09951478308105
 20
-44.42384751267245
 30
0.0
 10
21.02449927573764
 20
-45.25289731806991
 30
0.0
 10
21.54384945604505
 20
-46.75067903793418
 30
0.0
 10
21.59783216761806
 20
-47.96271656909675
 30
0.0
 10
21.64792832025197
 20
-49.08749180527708
 30
0.0
 10
21.5337979043293
 20
-50.82597730837495
 30
0.0
 10
20.45254788122596
 20
-51.5311645336418
 30
0.0
 10
20.25521757246756
 20
-51.65986262374214
 30
0.0
 10
20.01219513296678
 20
-51.7264774645184
 30
0.0
 10
19.76803239648604
 20
-51.77553784029391
 30
0.0
  0
SPLINE
  5
BC
330
1F
100
AcDbEntity
  8
0
  6
Continuous
 62
     7
370
    15
100
AcDbSpline
210
0.0
220
0.0
230
1.0
 70
     8
 71
     3
 72
     8
 73
     4
 74
     0
 42
0.000000001
 43
0.00000001
 40
0.0
 40
0.0
 40
0.0
 40
0.0
 40
0.6390400524134258
 40
0.6390400524134258
 40
0.6390400524134258
 40
0.6390400524134258
 10
19.76803239648604
 20
-51.77553784029392
 30
0.0
 10
19.18237388442038
 20
-51.89321602121622
 30
0.0
 10
18.59361303825666
 20
-51.98568061737679
 30
0.0
 10
18.00175020976762
 20
-52.05293158880507
 30
0.0
  0
SPLINE
  5
BD
330
1F
100
AcDbEntity
  8
0
  6
Continuous
 62
     7
370
    15
100
AcDbSpline
210
0.0
220
0.0
230
1.0
 70
     8
 71
     2
 72
     6
 73
     3
 74
     0
 42
0.000000001
 43
0.00000001
 40
0.0
 40
0.0
 40
0.0
 40
0.7112362980199994
 40
0.7112362980199994
 40
0.7112362980199994
 10
18.02865229094791
 20
-45.32064305869407
 30
0.0
 10
18.75119791813657
 20
-48.80581654271746
 30
0.0
 10
18.00175020976762
 20
-52.05293158880506
 30
0.0
  0
LINE
  5
BE
330
1F
100
AcDbEntity
  8
0
  6
Continuous
 62
     7
370
    15
100
AcDbLine
 10
4.8394503346
 20
13.0422266436
 30
0.0
 11
21.0348320914
 21
13.0422266436
 31
0.0
  0
LINE
  5
BF
330
1F
100
AcDbEntity
  8
0
  6
Continuous
 62
     7
370
    15
100
AcDbLine
 10
0.0
 20
-2.4131966993
 30
0.0
 11
4.8394503346
 21
13.0422266436
 31
0.0
  0
LINE
  5
C0
330
1F
100
AcDbEntity
  8
0
  6
Continuous
 62
     7
370
    15
100
AcDbLine
 10
0.0
 20
-2.4131966993
 30
0.0
 11
-4.8394503346
 21
13.0422266436
 31
0.0
  0
LINE
  5
C1
330
1F
100
AcDbEntity
  8
0
  6
Continuous
 62
     7
370
    15
100
AcDbLine
 10
-4.8394503346
 20
13.0422266436
 30
0.0
 11
-21.0348320914
 21
13.0422266436
 31
0.0
  0
LINE
  5
C2
330
1F
100
AcDbEntity
  8
0
  6
Continuous
 62
     7
370
    15
100
AcDbLine
 10
-21.0348320914
 20
13.0422266436
 30
0.0
 11
-8.1693067959
 21
22.8793323724
 31
0.0
  0
LINE
  5
C3
330
1F
100
AcDbEntity
  8
0
  6
Continuous
 62
     7
370
    15
100
AcDbLine
 10
-8.1693067959
 20
22.8793323724
 30
0.0
 11
-12.9427502998
 21
38.3552694155
 31
0.0
  0
LINE
  5
C4
330
1F
100
AcDbEntity
  8
0
  6
Continuous
 62
     7
370
    15
100
AcDbLine
 10
-12.9427502998
 20
38.3552694155
 30
0.0
 11
0.0
 21
28.6199931007
 31
0.0
  0
LINE
  5
C5
330
1F
100
AcDbEntity
  8
0
  6
Continuous
 62
     7
370
    15
100
AcDbLine
 10
12.9427502998
 20
38.3552694155
 30
0.0
 11
0.0
 21
28.6199931007
 31
0.0
  0
LINE
  5
C6
330
1F
100
AcDbEntity
  8
0
  6
Continuous
 62
     7
370
    15
100
AcDbLine
 10
8.1693067959
 20
22.8793323724
 30
0.0
 11
12.9427502998
 21
38.3552694155
 31
0.0
  0
LINE
  5
C7
330
1F
100
AcDbEntity
  8
0
  6
Continuous
 62
     7
370
    15
100
AcDbLine
 10
21.0348320914
 20
13.0422266436
 30
0.0
 11
8.1693067959
 21
22.8793323724
 31
0.0
  0
SPLINE
  5
C8
330
1F
100
AcDbEntity
  8
0
  6
Continuous
 62
     7
370
    15
100
AcDbSpline
210
0.0
220
0.0
230
1.0
 70
     8
 71
     2
 72
     6
 73
     3
 74
     0
 42
0.000000001
 43
0.00000001
 40
0.0
 40
0.0
 40
0.0
 40
0.8754611690499567
 40
0.8754611690499567
 40
0.8754611690499567
 10
-14.75219618150394
 20
-22.85775369494371
 30
0.0
 10
-6.753965981269403
 20
-22.53281814952553
 30
0.0
 10
-0.0851808133857463
 20
-18.9779698253567
 30
0.0
  0
ARC
  5
C9
330
1F
100
AcDbEntity
  8
0
  6
Continuous
 62
     7
370
    15
100
AcDbCircle
 10
0.0
 20
18.3564476127
 30
0.0
 40
43.77485215967751
100
AcDbArc
 50
250.3056983994
 51
289.6943016006
  0
SPLINE
  5
CA
330
1F
100
AcDbEntity
  8
0
  6
Continuous
 62
     7
370
    15
100
AcDbSpline
210
0.0
220
0.0
230
1.0
 70
     8
 71
     2
 72
     6
 73
     3
 74
     0
 42
0.000000001
 43
0.00000001
 40
0.0
 40
0.0
 40
0.0
 40
0.8754611690499567
 40
0.8754611690499567
 40
0.8754611690499567
 10
14.75219618150393
 20
-22.85775369494371
 30
0.0
 10
6.753965981269397
 20
-22.53281814952553
 30
0.0
 10
0.0851808133857417
 20
-18.9779698253567
 30
0.0
  0
ARC
  5
CB
330
1F
100
AcDbEntity
  8
0
  6
Continuous
 62
     7
370
    15
100
AcDbCircle
 10
10.3839500498
 20
-27.2155097148
 30
0.0
 40
13.18793809566849
100
AcDbArc
 50
42.4068325196
 51
141.3451974244
  0
LINE
  5
CC
330
1F
100
AcDbEntity
  8
0
  6
Continuous
 62
     7
370
    15
100
AcDbLine
 10
32.4780715156
 20
-0.734153006
 30
0.0
 11
20.12159285
 21
-18.3216902928
 31
0.0
  0
ARC
  5
CD
330
1F
100
AcDbEntity
  8
0
  6
Continuous
 62
     7
370
    15
100
AcDbCircle
 10
34.9435153172
 20
9.4482834433
 30
0.0
 40
10.47666097490601
100
AcDbArc
 50
180.0
 51
256.3890862635
  0
LINE
  5
CE
330
1F
100
AcDbEntity
  8
0
  6
Continuous
 62
     7
370
    15
100
AcDbLine
 10
35.5464664686
 20
5.7777607784
 30
0.0
 11
24.4668543423
 21
9.4482834433
 31
0.0
  0
SPLINE
  5
CF
330
1F
100
AcDbEntity
  8
0
  6
Continuous
 62
     7
370
    15
100
AcDbSpline
210
0.0
220
0.0
230
1.0
 70
     8
 71
     2
 72
     6
 73
     3
 74
     0
 42
0.000000001
 43
0.00000001
 40
0.0
 40
0.0
 40
0.0
 40
0.7230626232232845
 40
0.7230626232232845
 40
0.7230626232232845
 10
34.78926023959887
 20
-8.27700991621102
 30
0.0
 10
36.7116672680677
 20
-1.095951267797977
 30
0.0
 10
35.54646646864902
 20
5.777760778355232
 30
0.0
  0
ARC
  5
D0
330
1F
100
AcDbEntity
  8
0
  6
Continuous
 62
     7
370
    15
100
AcDbCircle
 10
0.0
 20
18.3564476127
 30
0.0
 40
43.81362445588066
100
AcDbArc
 50
322.5635776146
 51
1.2713606584
  0
SPLINE
  5
D1
330
1F
100
AcDbEntity
  8
0
  6
Continuous
 62
     7
370
    15
100
AcDbSpline
210
0.0
220
0.0
230
1.0
 70
     8
 71
     2
 72
     6
 73
     3
 74
     0
 42
0.000000001
 43
0.00000001
 40
0.0
 40
0.0
 40
0.0
 40
0.8427466681479303
 40
0.8427466681479303
 40
0.8427466681479303
 10
36.10114024109695
 20
7.530029117892675
 30
0.0
 10
41.11176705437868
 20
12.8421783990578
 30
0.0
 10
43.80283862421529
 20
19.32856716390108
 30
0.0
  0
LINE
  5
D2
330
1F
100
AcDbEntity
  8
0
  6
Continuous
 62
     7
370
    15
100
AcDbLine
 10
24.6368601918
 20
11.3279869596
 30
0.0
 11
36.1011402411
 21
7.5300291179
 31
0.0
  0
ARC
  5
D3
330
1F
100
AcDbEntity
  8
0
  6
Continuous
 62
     7
370
    15
100
AcDbCircle
 10
34.9435153172
 20
9.4482834433
 30
0.0
 40
10.47666097490601
100
AcDbArc
 50
94.0642784314
 51
169.6641273227
  0
SPLINE
  5
D4
330
1F
100
AcDbEntity
  8
0
  6
Continuous
 62
     7
370
    15
100
AcDbSpline
210
0.0
220
0.0
230
1.0
 70
     8
 71
     2
 72
     6
 73
     3
 74
     0
 42
0.000000001
 43
0.00000001
 40
0.0
 40
0.0
 40
0.0
 40
0.8657510954031022
 40
0.8657510954031022
 40
0.8657510954031022
 10
34.20097602968604
 20
19.89859734238305
 30
0.0
 10
34.88325295572582
 20
40.31535440529808
 30
0.0
 10
22.2626075179787
 20
48.32696997512546
 30
0.0
  0
ARC
  5
D5
330
1F
100
AcDbEntity
  8
0
  6
Continuous
 62
     7
370
    15
100
AcDbCircle
 10
22.0508876367
 20
48.4599161742
 30
0.0
 40
0.2500000000000004
100
AcDbArc
 50
327.8738741641
 51
351.0545417921
  0
SPLINE
  5
D6
330
1F
100
AcDbEntity
  8
0
  6
Continuous
 62
     7
370
    15
100
AcDbSpline
210
0.0
220
0.0
230
1.0
 70
     8
 71
     2
 72
     6
 73
     3
 74
     0
 42
0.000000001
 43
0.00000001
 40
0.0
 40
0.0
 40
0.0
 40
0.6664947726160318
 40
0.6664947726160318
 40
0.6664947726160318
 10
35.95411687892633
 20
43.37075803536732
 30
0.0
 10
29.41301973774945
 20
47.27632866159119
 30
0.0
 10
22.29784683875671
 20
48.42104262916324
 30
0.0
  0
ARC
  5
D7
330
1F
100
AcDbEntity
  8
0
  6
Continuous
 62
     7
370
    15
100
AcDbCircle
 10
0.0
 20
18.3564476127
 30
0.0
 40
43.79970600890879
100
AcDbArc
 50
34.8274431679
 51
63.8859137074
  0
SPLINE
  5
D8
330
1F
100
AcDbEntity
  8
0
  6
Continuous
 62
     7
370
    15
100
AcDbSpline
210
0.0
220
0.0
230
1.0
 70
     8
 71
     2
 72
     6
 73
     3
 74
     0
 42
0.000000001
 43
0.00000001
 40
0.0
 40
0.0
 40
0.0
 40
0.720817123746589
 40
0.720817123746589
 40
0.720817123746589
 10
19.27887590758145
 20
57.68505285372162
 30
0.0
 10
17.42282741159175
 20
57.49670134973863
 30
0.0
 10
15.5621365290067
 20
57.46614346756127
 30
0.0
  0
SPLINE
  5
D9
330
1F
100
AcDbEntity
  8
0
  6
Continuous
 62
     7
370
    15
100
AcDbSpline
210
0.0
220
0.0
230
1.0
 70
     8
 71
     3
 72
     8
 73
     4
 74
     0
 42
0.000000001
 43
0.00000001
 40
0.018136505010962
 40
0.018136505010962
 40
0.018136505010962
 40
0.018136505010962
 40
0.8241799901760805
 40
0.8241799901760805
 40
0.8241799901760805
 40
0.8241799901760805
 10
21.93495702350868
 20
48.68141130496304
 30
0.0
 10
20.20856376031844
 20
51.95495588549925
 30
0.0
 10
18.08429026215136
 20
54.8831999396982
 30
0.0
 10
15.5621365290067
 20
57.46614346756127
 30
0.0
  0
ARC
  5
DA
330
1F
100
AcDbEntity
  8
0
  6
Continuous
 62
     7
370
    15
100
AcDbCircle
 10
22.0508876367
 20
48.4599161742
 30
0.0
 40
0.249999999999994
100
AcDbArc
 50
117.6275726718
 51
139.3053207031
  0
SPLINE
  5
DB
330
1F
100
AcDbEntity
  8
0
  6
Continuous
 62
     7
370
    15
100
AcDbSpline
210
0.0
220
0.0
230
1.0
 70
     8
 71
     3
 72
     9
 73
     5
 74
     0
 42
0.000000001
 43
0.00000001
 40
0.0096398822326625
 40
0.0096398822326625
 40
0.0096398822326625
 40
0.0096398822326625
 40
0.4611394412936416
 40
1.0
 40
1.0
 40
1.0
 40
1.0
 10
21.8613389143615
 20
48.62292317369563
 30
0.0
 10
18.89111287853092
 20
51.14359325105468
 30
0.0
 10
11.25825927695532
 20
54.19992677715322
 30
0.0
 10
3.471050848543344
 20
56.90923472957321
 30
0.0
 10
-0.000000000000001
 20
60.07448628573596
 30
0.0
  0
SPLINE
  5
DC
330
1F
100
AcDbEntity
  8
0
  6
Continuous
 62
     7
370
    15
100
AcDbSpline
210
0.0
220
0.0
230
1.0
 70
     8
 71
     3
 72
     9
 73
     5
 74
     0
 42
0.000000001
 43
0.00000001
 40
0.0096398822326629
 40
0.0096398822326629
 40
0.0096398822326629
 40
0.0096398822326629
 40
0.4611394412936421
 40
1.0
 40
1.0
 40
1.0
 40
1.0
 10
-21.8613389143615
 20
48.62292317369562
 30
0.0
 10
-18.89111287853092
 20
51.14359325105462
 30
0.0
 10
-11.25825927695525
 20
54.19992677715333
 30
0.0
 10
-3.471050848543439
 20
56.90923472957306
 30
0.0
 10
-0.0000000000000019
 20
60.07448628573596
 30
0.0
  0
ARC
  5
DD
330
1F
100
AcDbEntity
  8
0
  6
Continuous
 62
     7
370
    15
100
AcDbCircle
 10
-22.0508876367
 20
48.4599161742
 30
0.0
 40
0.2499999999999893
100
AcDbArc
 50
40.6946792969
 51
62.3724273282
  0
SPLINE
  5
DE
330
1F
100
AcDbEntity
  8
0
  6
Continuous
 62
     7
370
    15
100
AcDbSpline
210
0.0
220
0.0
230
1.0
 70
     8
 71
     3
 72
     8
 73
     4
 74
     0
 42
0.000000001
 43
0.00000001
 40
0.018136505010962
 40
0.018136505010962
 40
0.018136505010962
 40
0.018136505010962
 40
0.8241799901760805
 40
0.8241799901760805
 40
0.8241799901760805
 40
0.8241799901760805
 10
-21.93495702350868
 20
48.68141130496304
 30
0.0
 10
-20.20856376031844
 20
51.95495588549925
 30
0.0
 10
-18.08429026215136
 20
54.88319993969819
 30
0.0
 10
-15.5621365290067
 20
57.46614346756127
 30
0.0
  0
SPLINE
  5
DF
330
1F
100
AcDbEntity
  8
0
  6
Continuous
 62
     7
370
    15
100
AcDbSpline
210
0.0
220
0.0
230
1.0
 70
     8
 71
     2
 72
     6
 73
     3
 74
     0
 42
0.000000001
 43
0.00000001
 40
0.0
 40
0.0
 40
0.0
 40
0.720817123746589
 40
0.720817123746589
 40
0.720817123746589
 10
-19.27887590758145
 20
57.68505285372161
 30
0.0
 10
-17.42282741159175
 20
57.49670134973862
 30
0.0
 10
-15.5621365290067
 20
57.46614346756127
 30
0.0
  0
ARC
  5
E0
330
1F
100
AcDbEntity
  8
0
  6
Continuous
 62
     7
370
    15
100
AcDbCircle
 10
0.0
 20
18.3564476127
 30
0.0
 40
43.79970600890878
100
AcDbArc
 50
116.1140862926
 51
145.1725568321
  0
SPLINE
  5
E1
330
1F
100
AcDbEntity
  8
0
  6
Continuous
 62
     7
370
    15
100
AcDbSpline
210
0.0
220
0.0
230
1.0
 70
     8
 71
     2
 72
     6
 73
     3
 74
     0
 42
0.000000001
 43
0.00000001
 40
0.0
 40
0.0
 40
0.0
 40
0.6664947726160318
 40
0.6664947726160318
 40
0.6664947726160318
 10
-35.95411687892633
 20
43.37075803536733
 30
0.0
 10
-29.41301973774945
 20
47.2763286615912
 30
0.0
 10
-22.29784683875671
 20
48.42104262916323
 30
0.0
  0
ARC
  5
E2
330
1F
100
AcDbEntity
  8
0
  6
Continuous
 62
     7
370
    15
100
AcDbCircle
 10
-22.0508876367
 20
48.4599161742
 30
0.0
 40
0.2500000000000136
100
AcDbArc
 50
188.9454582079
 51
212.1261258359
  0
SPLINE
  5
E3
330
1F
100
AcDbEntity
  8
0
  6
Continuous
 62
     7
370
    15
100
AcDbSpline
210
0.0
220
0.0
230
1.0
 70
     8
 71
     2
 72
     6
 73
     3
 74
     0
 42
0.000000001
 43
0.00000001
 40
0.0
 40
0.0
 40
0.0
 40
0.8657510954031026
 40
0.8657510954031026
 40
0.8657510954031026
 10
-34.20097602968604
 20
19.89859734238305
 30
0.0
 10
-34.88325295572584
 20
40.31535440529808
 30
0.0
 10
-22.2626075179787
 20
48.32696997512546
 30
0.0
  0
ARC
  5
E4
330
1F
100
AcDbEntity
  8
0
  6
Continuous
 62
     7
370
    15
100
AcDbCircle
 10
-34.9435153172
 20
9.4482834433
 30
0.0
 40
10.47666097490602
100
AcDbArc
 50
10.3358726773
 51
85.9357215686
  0
LINE
  5
E5
330
1F
100
AcDbEntity
  8
0
  6
Continuous
 62
     7
370
    15
100
AcDbLine
 10
-24.6368601918
 20
11.3279869596
 30
0.0
 11
-36.1011402411
 21
7.5300291179
 31
0.0
  0
SPLINE
  5
E6
330
1F
100
AcDbEntity
  8
0
  6
Continuous
 62
     7
370
    15
100
AcDbSpline
210
0.0
220
0.0
230
1.0
 70
     8
 71
     2
 72
     6
 73
     3
 74
     0
 42
0.000000001
 43
0.00000001
 40
0.0
 40
0.0
 40
0.0
 40
0.8427466681479303
 40
0.8427466681479303
 40
0.8427466681479303
 10
-36.10114024109695
 20
7.530029117892675
 30
0.0
 10
-41.11176705437867
 20
12.8421783990578
 30
0.0
 10
-43.80283862421529
 20
19.32856716390109
 30
0.0
  0
ARC
  5
E7
330
1F
100
AcDbEntity
  8
0
  6
Continuous
 62
     7
370
    15
100
AcDbCircle
 10
0.0
 20
18.3564476127
 30
0.0
 40
43.81362445588066
100
AcDbArc
 50
178.7286393416
 51
217.4364223854
  0
SPLINE
  5
E8
330
1F
100
AcDbEntity
  8
0
  6
Continuous
 62
     7
370
    15
100
AcDbSpline
210
0.0
220
0.0
230
1.0
 70
     8
 71
     2
 72
     6
 73
     3
 74
     0
 42
0.000000001
 43
0.00000001
 40
0.0
 40
0.0
 40
0.0
 40
0.7230626232232845
 40
0.7230626232232845
 40
0.7230626232232845
 10
-34.78926023959887
 20
-8.277009916211021
 30
0.0
 10
-36.7116672680677
 20
-1.095951267797976
 30
0.0
 10
-35.54646646864902
 20
5.777760778355232
 30
0.0
  0
LINE
  5
E9
330
1F
100
AcDbEntity
  8
0
  6
Continuous
 62
     7
370
    15
100
AcDbLine
 10
-35.5464664686
 20
5.7777607784
 30
0.0
 11
-24.4668543423
 21
9.4482834433
 31
0.0
  0
ARC
  5
EA
330
1F
100
AcDbEntity
  8
0
  6
Continuous
 62
     7
370
    15
100
AcDbCircle
 10
-34.9435153172
 20
9.4482834433
 30
0.0
 40
10.47666097490602
100
AcDbArc
 50
283.6109137365
 51
0.0
  0
LINE
  5
EB
330
1F
100
AcDbEntity
  8
0
  6
Continuous
 62
     7
370
    15
100
AcDbLine
 10
-32.4780715156
 20
-0.734153006
 30
0.0
 11
-20.12159285
 21
-18.3216902928
 31
0.0
  0
ARC
  5
EC
330
1F
100
AcDbEntity
  8
0
  6
Continuous
 62
     7
370
    15
100
AcDbCircle
 10
-10.3839500498
 20
-27.2155097148
 30
0.0
 40
13.18793809566848
100
AcDbArc
 50
38.6548025756
 51
137.5931674804
  0
ENDSEC
  0
SECTION
  2
OBJECTS
  0
DICTIONARY
  5
C
330
0
100
AcDbDictionary
281
     1
  3
ACAD_GROUP
350
D
  3
ACAD_LAYOUT
350
1A
  3
ACAD_MLINESTYLE
350
17
  3
ACAD_PLOTSETTINGS
350
19
  3
ACAD_PLOTSTYLENAME
350
E
  3
ACAD_SCALELIST
350
47
  0
DICTIONARY
  5
D
102
{ACAD_REACTORS
330
C
102
}
330
C
100
AcDbDictionary
281
     1
  0
DICTIONARY
  5
1A
102
{ACAD_REACTORS
330
C
102
}
330
C
100
AcDbDictionary
281
     1
  3
Layout1
350
1E
  3
Layout2
350
26
  3
Model
350
22
  0
DICTIONARY
  5
17
102
{ACAD_REACTORS
330
C
102
}
330
C
100
AcDbDictionary
281
     1
  3
Standard
350
18
  0
DICTIONARY
  5
19
102
{ACAD_REACTORS
330
C
102
}
330
C
100
AcDbDictionary
281
     1
  0
ACDBDICTIONARYWDFLT
  5
E
102
{ACAD_REACTORS
330
C
102
}
330
C
100
AcDbDictionary
281
     1
  3
Normal
350
F
100
AcDbDictionaryWithDefault
340
F
  0
DICTIONARY
  5
47
102
{ACAD_REACTORS
330
C
102
}
330
C
100
AcDbDictionary
281
     1
  3
A0
350
48
  3
A1
350
49
  3
A2
350
4A
  3
A3
350
4B
  3
A4
350
4C
  3
A5
350
4D
  3
A6
350
4E
  3
A7
350
4F
  3
A8
350
50
  3
A9
350
51
  3
B0
350
52
  3
B1
350
53
  3
B2
350
54
  3
B3
350
55
  3
B4
350
56
  3
B5
350
57
  3
B6
350
58
  3
B7
350
59
  3
B8
350
5A
  3
B9
350
5B
  3
C0
350
5C
  3
C1
350
5D
  3
C2
350
5E
  3
C3
350
5F
  3
C4
350
60
  3
C5
350
61
  3
C6
350
62
  3
C7
350
63
  3
C8
350
64
  3
C9
350
65
  3
D0
350
66
  3
D1
350
67
  3
D2
350
68
  0
LAYOUT
  5
1E
102
{ACAD_REACTORS
330
1A
102
}
330
1A
100
AcDbPlotSettings
  1

  2
none_device
  4

  6

 40
0.0
 41
0.0
 42
0.0
 43
0.0
 44
0.0
 45
0.0
 46
0.0
 47
0.0
 48
0.0
 49
0.0
140
0.0
141
0.0
142
1.0
143
1.0
 70
   688
 72
     1
 73
     0
 74
     5
  7

 75
    16
147
1.0
148
0.0
149
0.0
100
AcDbLayout
  1
Layout1
 70
     1
 71
     1
 10
0.0
 20
0.0
 11
420.0
 21
297.0
 12
0.0
 22
0.0
 32
0.0
 14
1.0000000000E+20
 24
1.0000000000E+20
 34
1.0000000000E+20
 15
-1.0000000000E+20
 25
-1.0000000000E+20
 35
-1.0000000000E+20
146
0.0
 13
0.0
 23
0.0
 33
0.0
 16
1.0
 26
0.0
 36
0.0
 17
0.0
 27
1.0
 37
0.0
 76
     0
330
1B
  0
LAYOUT
  5
26
102
{ACAD_REACTORS
330
1A
102
}
330
1A
100
AcDbPlotSettings
  1

  2
none_device
  4

  6

 40
0.0
 41
0.0
 42
0.0
 43
0.0
 44
0.0
 45
0.0
 46
0.0
 47
0.0
 48
0.0
 49
0.0
140
0.0
141
0.0
142
1.0
143
1.0
 70
   688
 72
     1
 73
     0
 74
     5
  7

 75
    16
147
1.0
148
0.0
149
0.0
100
AcDbLayout
  1
Layout2
 70
     1
 71
     2
 10
0.0
 20
0.0
 11
0.0
 21
0.0
 12
0.0
 22
0.0
 32
0.0
 14
0.0
 24
0.0
 34
0.0
 15
0.0
 25
0.0
 35
0.0
146
0.0
 13
0.0
 23
0.0
 33
0.0
 16
1.0
 26
0.0
 36
0.0
 17
0.0
 27
1.0
 37
0.0
 76
     0
330
23
  0
LAYOUT
  5
22
102
{ACAD_REACTORS
330
1A
102
}
330
1A
100
AcDbPlotSettings
  1

  2
none_device
  4
ANSI_A_(11.00_x_8.50_Inches)
  6

 40
6.35
 41
19.05
 42
6.35000508
 43
19.05000254
 44
279.4
 45
215.9
 46
130.1148395653
 47
87.7388489786
 48
0.0
 49
0.0
140
0.0
141
0.0
142
0.0218674699
143
1.0
 70
  1696
 72
     0
 73
     0
 74
     0
  7

 75
     0
147
0.0179189148
148
-1300.4909072572
149
0.0
100
AcDbLayout
  1
Model
 70
     1
 71
     0
 10
0.0
 20
0.0
 11
420.0
 21
297.0
 12
0.0
 22
0.0
 32
0.0
 14
-243.1754385965
 24
-85.3657277107
 34
0.0
 15
254.8245614035
 25
89.5467836257
 35
0.0
146
0.0
 13
0.0
 23
0.0
 33
0.0
 16
1.0
 26
0.0
 36
0.0
 17
0.0
 27
1.0
 37
0.0
 76
     0
330
1F
331
29
  0
MLINESTYLE
  5
18
102
{ACAD_REACTORS
330
17
102
}
330
17
100
AcDbMlineStyle
  2
Standard
 70
     0
  3

 62
   256
 51
90.0
 52
90.0
 71
     2
 49
0.5
 62
   256
  6
BYLAYER
 49
-0.5
 62
   256
  6
BYLAYER
  0
ACDBPLACEHOLDER
  5
F
102
{ACAD_REACTORS
330
E
102
}
330
E
  0
SCALE
  5
48
102
{ACAD_REACTORS
330
47
102
}
330
47
100
AcDbScale
 70
     0
300
1:1
140
1.0
141
1.0
290
     1
  0
SCALE
  5
49
102
{ACAD_REACTORS
330
47
102
}
330
47
100
AcDbScale
 70
     0
300
1:2
140
1.0
141
2.0
290
     0
  0
SCALE
  5
4A
102
{ACAD_REACTORS
330
47
102
}
330
47
100
AcDbScale
 70
     0
300
1:4
140
1.0
141
4.0
290
     0
  0
SCALE
  5
4B
102
{ACAD_REACTORS
330
47
102
}
330
47
100
AcDbScale
 70
     0
300
1:5
140
1.0
141
5.0
290
     0
  0
SCALE
  5
4C
102
{ACAD_REACTORS
330
47
102
}
330
47
100
AcDbScale
 70
     0
300
1:8
140
1.0
141
8.0
290
     0
  0
SCALE
  5
4D
102
{ACAD_REACTORS
330
47
102
}
330
47
100
AcDbScale
 70
     0
300
1:10
140
1.0
141
10.0
290
     0
  0
SCALE
  5
4E
102
{ACAD_REACTORS
330
47
102
}
330
47
100
AcDbScale
 70
     0
300
1:16
140
1.0
141
16.0
290
     0
  0
SCALE
  5
4F
102
{ACAD_REACTORS
330
47
102
}
330
47
100
AcDbScale
 70
     0
300
1:20
140
1.0
141
20.0
290
     0
  0
SCALE
  5
50
102
{ACAD_REACTORS
330
47
102
}
330
47
100
AcDbScale
 70
     0
300
1:30
140
1.0
141
30.0
290
     0
  0
SCALE
  5
51
102
{ACAD_REACTORS
330
47
102
}
330
47
100
AcDbScale
 70
     0
300
1:40
140
1.0
141
40.0
290
     0
  0
SCALE
  5
52
102
{ACAD_REACTORS
330
47
102
}
330
47
100
AcDbScale
 70
     0
300
1:50
140
1.0
141
50.0
290
     0
  0
SCALE
  5
53
102
{ACAD_REACTORS
330
47
102
}
330
47
100
AcDbScale
 70
     0
300
1:100
140
1.0
141
100.0
290
     0
  0
SCALE
  5
54
102
{ACAD_REACTORS
330
47
102
}
330
47
100
AcDbScale
 70
     0
300
2:1
140
2.0
141
1.0
290
     0
  0
SCALE
  5
55
102
{ACAD_REACTORS
330
47
102
}
330
47
100
AcDbScale
 70
     0
300
4:1
140
4.0
141
1.0
290
     0
  0
SCALE
  5
56
102
{ACAD_REACTORS
330
47
102
}
330
47
100
AcDbScale
 70
     0
300
8:1
140
8.0
141
1.0
290
     0
  0
SCALE
  5
57
102
{ACAD_REACTORS
330
47
102
}
330
47
100
AcDbScale
 70
     0
300
10:1
140
10.0
141
1.0
290
     0
  0
SCALE
  5
58
102
{ACAD_REACTORS
330
47
102
}
330
47
100
AcDbScale
 70
     0
300
100:1
140
100.0
141
1.0
290
     0
  0
SCALE
  5
59
102
{ACAD_REACTORS
330
47
102
}
330
47
100
AcDbScale
 70
     0
300
1/128" = 1'-0"
140
0.0078125
141
12.0
290
     0
  0
SCALE
  5
5A
102
{ACAD_REACTORS
330
47
102
}
330
47
100
AcDbScale
 70
     0
300
1/64" = 1'-0"
140
0.015625
141
12.0
290
     0
  0
SCALE
  5
5B
102
{ACAD_REACTORS
330
47
102
}
330
47
100
AcDbScale
 70
     0
300
1/32" = 1'-0"
140
0.03125
141
12.0
290
     0
  0
SCALE
  5
5C
102
{ACAD_REACTORS
330
47
102
}
330
47
100
AcDbScale
 70
     0
300
1/16" = 1'-0"
140
0.0625
141
12.0
290
     0
  0
SCALE
  5
5D
102
{ACAD_REACTORS
330
47
102
}
330
47
100
AcDbScale
 70
     0
300
3/32" = 1'-0"
140
0.09375
141
12.0
290
     0
  0
SCALE
  5
5E
102
{ACAD_REACTORS
330
47
102
}
330
47
100
AcDbScale
 70
     0
300
1/8" = 1'-0"
140
0.125
141
12.0
290
     0
  0
SCALE
  5
5F
102
{ACAD_REACTORS
330
47
102
}
330
47
100
AcDbScale
 70
     0
300
3/16" = 1'-0"
140
0.1875
141
12.0
290
     0
  0
SCALE
  5
60
102
{ACAD_REACTORS
330
47
102
}
330
47
100
AcDbScale
 70
     0
300
1/4" = 1'-0"
140
0.25
141
12.0
290
     0
  0
SCALE
  5
61
102
{ACAD_REACTORS
330
47
102
}
330
47
100
AcDbScale
 70
     0
300
3/8" = 1'-0"
140
0.375
141
12.0
290
     0
  0
SCALE
  5
62
102
{ACAD_REACTORS
330
47
102
}
330
47
100
AcDbScale
 70
     0
300
1/2" = 1'-0"
140
0.5
141
12.0
290
     0
  0
SCALE
  5
63
102
{ACAD_REACTORS
330
47
102
}
330
47
100
AcDbScale
 70
     0
300
3/4" = 1'-0"
140
0.75
141
12.0
290
     0
  0
SCALE
  5
64
102
{ACAD_REACTORS
330
47
102
}
330
47
100
AcDbScale
 70
     0
300
1" = 1'-0"
140
1.0
141
12.0
290
     0
  0
SCALE
  5
65
102
{ACAD_REACTORS
330
47
102
}
330
47
100
AcDbScale
 70
     0
300
1-1/2" = 1'-0"
140
1.5
141
12.0
290
     0
  0
SCALE
  5
66
102
{ACAD_REACTORS
330
47
102
}
330
47
100
AcDbScale
 70
     0
300
3" = 1'-0"
140
3.0
141
12.0
290
     0
  0
SCALE
  5
67
102
{ACAD_REACTORS
330
47
102
}
330
47
100
AcDbScale
 70
     0
300
6" = 1'-0"
140
6.0
141
12.0
290
     0
  0
SCALE
  5
68
102
{ACAD_REACTORS
330
47
102
}
330
47
100
AcDbScale
 70
     0
300
1'-0" = 1'-0"
140
12.0
141
12.0
290
     0
  0
ENDSEC
  0
EOF
